Popular tags :
-- : -- : --
 

Tags

This song was tagged with the following keywords:

You can tag this song with the following form.

Songs can also be tagged in the player, when they are being played.

Song statisticsSong statistics

song Plays: 312
star Favorites: 7

People who like this song:

  • PaulNZ
  • pidderpat
  • woodjean
  • Chas Connolly

Lyrics

well my heart will sleep tonight on its bed, silk sheets stained in red. it's never seemed as calm as on these waves, casting off away. even the turning leaves turn no more, laid on white carpets' floor. don't worry, silver fire: put out your flame, and take in all your blame.
oh, rest in peace; sleep without a stir, and know that you won't be needed here for a while.
do i walk the tragic trail laced with hope -- the gentle rising slope? and as the boulder falls, i'd swear again that this would be the end.
and those times i've called before, remember them no more. and know that you won't be needed here for a while.

ReportJanine, We Should - Without a StirJanine, We Should - Without a Stir

  • Founded: April 2008
  • Location: Irvine, California, United States of America
  • Label: unsigned

Members

Report
	  
Without a Stir    Without a Stir

  • Title: Without a Stir
  • Artist: Janine, We Should
  • Duration: 00:03:55
  • Played: 312

i do this way too much

This song is featured in the following album(s):

TabsTabs

  • Guitar/Other

    "WITHOUT A STIR"
    (Standard Tuning; Capo at 3)
    (All frets relative to Capo)

    Intro & Verse:
    Em
    e|---3---3---3---3---3---2---2-----|---------------2---2-------------|
    B|---0---0---0---0---0---0---0---3-|---3---3---3---3---3---3---3---0-|
    G|-------------------------------0-|---0---0---0-----------0---0---0-|
    D|---------------------------------|---------------------------------|
    A|---------------------------------|---------------------------------|
    E|-0---0---0---0---0---0---0---0---|-0---0---0---0---0---0---0---0---|

    Cmaj7 (add2)
    e|---------------------------------|---------------------------------|
    B|---0---0---0---1---1---0---0-----|---------------0---0---1---1---0-|
    G|---0---0---0---0---0---0---0---0-|---0---0---0---0---0---0---0---0-| x6
    D|-------------------------------0-|---0---0---0---------------------|
    A|-3---3---3---3---3---3---3---3---|-3---3---3---3---3---3---3---3---|
    E|---------------------------------|---------------------------------|


    Chorus 1:
    Am Em
    e|-------------------3---3---------|---------------3---3-------------|
    B|---1---1---1---1---1---1---1---1-|---0---0---0---0---0---0---0---3-|
    G|---2---2---2---2--(2)------2---2-|---0---0---0--(0)------0---0---2-|
    D|---------------------------------|---------------------------------|
    A|-0---0---0---0---0---0---0---0---|---------------------------------|
    E|---------------------------------|-0---0---0---0---0---0---0---0---|

    Dm/F# Cmaj7 v (hold til count-off)
    e|---------------1---1---3---3-----|---------------------------------|
    B|---3---3---3---3---3---3---3---0-|---0---0---0---0-1---------------|
    G|---2---2---2--(2)--------------0-|---0---0---0---0-0---------------|
    D|---------------------------------|-----------------2---------------|
    A|---------------------------------|-3---3---3---3---3---------------|
    E|-1---1---1---1---1---1---1---1---|---------------------------------|


    Pre-verse and Verse 2:
    Em
    e|---3---3---3---3---3---2---2-----|---------------2---2-------------|
    B|---0---0---0---0---0---0---0---3-|---3---3---3---3---3---3---3---0-|
    G|---0---0---0---0---0---0---0---0-|---0---0---0---0---0---0---0---0-|
    D|-------------------------------2-|---2---2---2-----------2---2---2-|
    A|---------------------------------|---------------------------------|
    E|-0---0---0---0---0---0---0---0---|-0---0---0---0---0---0---0---0---|

    Cmaj7
    e|---------------------------------|---------------------------------|
    B|---0---0---0---1---1---0---0-----|---------------0---0---1---1---0-|
    G|---0---0---0---0---0---0---0---0-|---0---0---0---0---0---0---0---0-| x3
    D|-------------------------------2-|---2---2---2---------------------|
    A|-3---3---3---3---3---3---3---3---|-3---3---3---3---3---3---3---3---|
    E|---------------------------------|---------------------------------|


    Chorus 2:
    Am Em
    e|-------------------3---3---------|---------------3---3-------------|
    B|---1---1---1---1---1---1---1---1-|---0---0---0---0---0---0---0---3-|
    G|---2---2---2---2---2---2---2---2-|---0---0---0---0---0---0---0---2-|
    D|---2---2---2---2-----------2---2-|---2---2---2-----------2---2---0-|
    A|-0---0---0---0---0---0---0---0---|---------------------------------|
    E|---------------------------------|-0---0---0---0---0---0---0---0---|

    Dm/F# Cmaj7
    e|---------------1---1---3---3-----|---------------------------------|
    B|---3---3---3---3---3---3---3---0-|---0---0---0---1---1---0---0---1-|
    G|---2---2---2---2---2---2---2---0-|---0---0---0---0---0---0---0---0-|
    D|---0---0---0---------------------|---------------------------------|
    A|---------------------------------|-3---3---3---3---3---3---3---3---|
    E|-1---1---1---1---1---1---1---1---|---------------------------------|

    Am Em
    e|-------------------3---3---------|---------------3---3-------------|
    B|---1---1---1---1---1---1---1---1-|---0---0---0---0---0---0---0---3-|
    G|---2---2---2---2---2---2---2---2-|---0---0---0---0---0---0---0---2-|
    D|---2---2---2---2-----------2---2-|---2---2---2-----------2---2---0-|
    A|-0---0---0---0---0---0---0---0---|---------------------------------|
    E|---------------------------------|-0---0---0---0---0---0---0---0---|

    Dm/F# Cmaj7 v (hold til count-off)
    e|---------------1---1---3---3-----|---------------------------------|
    B|---3---3---3---3---3---3---3---0-|---0---0---0---0-1---------------|
    G|---2---2---2---2---2---2---2---0-|---0---0---0---0-0---------------|
    D|---0---0---0---------------------|-----------------2---------------|
    A|---------------------------------|-3---3---3---3---3---------------|
    E|-1---1---1---1---1---1---1---1---|---------------------------------|


    Solo: (For Rhythm, Same as Verse 2)
    Em
    e|---3---3---3---3---3---2---2-----|---------------2---2-------------|
    B|---0---0---0---0---0---0---0---3-|---3---3---3---3---3---3---3---0-|
    G|---0---0---0---0---0---0---0---0-|---0---0---0---0---0---0---0---0-|
    D|-------------------------------2-|---2---2---2-----------2---2---2-|
    A|---------------------------------|---------------------------------|
    E|-0---0---0---0---0---0---0---0---|-0---0---0---0---0---0---0---0---|

    Cmaj7
    e|---------------------------------|---------------------------------|
    B|---0---0---0---1---1---0---0-----|---------------0---0---1---1---0-|
    G|---0---0---0---0---0---0---0---0-|---0---0---0---0---0---0---0---0-| x2
    D|-------------------------------2-|---2---2---2---------------------|
    A|-3---3---3---3---3---3---3---3---|-3---3---3---3---3---3---3---3---|
    E|---------------------------------|---------------------------------|


    Chorus 3: (Strummed and Swung) (Strumming pattern very approximate)
    Am Em
    e|---------------------3-3---------|---------------------3-3---------|
    B|-----1-1---1-1-1-----1-1---1-1-1-|-----0-0---0-0-0-----0-0---0-0-0-|
    G|-----2-2---2-2-2-----2-2---2-2-2-|-----0-0---0-0-0-----0-0---0-0-0-|
    D|-2---2-2---2-2-2-2---2-----2-2-2-|-----2-2---2-2-2-----2-2---2-2-2-|
    A|-0---0-----------0---0-----------|-2---2-----------2---2-----------|
    E|---------------------------------|-0---0-----------0---0-----------|

    Dm/F# Cmaj7 v (hold til count-off)
    e|-----1-1---1-1-1-----3-3---1-1-1-|---------------------------------|
    B|-----3-3---3-3-3-----3-3---3-3-3-|-----0-0---0-0-0-1---------------|
    G|-----2-2---2-2-2-----2-2---2-2-2-|-----0-0---0-0-0-0---------------|
    D|-----0-0---0-0-0-----0-----0-0-0-|-----2-2---2-2-2-2---------------|
    A|-0---0-----------0---0-----------|-3---3-----------3---------------|
    E|-1---1-----------1---1-----------|---------------------------------|


    Outro:
    Em
    e|---3---3---3---3---3---2---2-----|---------------2---2-------------|
    B|---0---0---0---0---0---0---0---3-|---3---3---3---3---3---3---3---0-|
    G|-------------------------------0-|---0---0---0-----------0---0---0-|
    D|---------------------------------|---------------------------------|
    A|---------------------------------|---------------------------------|
    E|-0---0---0---0---0---0---0---0---|-0---0---0---0---0---0---0---0---|

    Cmaj7 (Retardando)
    e|---------------------------------|---------------------------------|
    B|---0---0---0---1---1---0---0---0-|-1-------------------------------|
    G|---0---0---0---0---0---0---0---0-|-0-------------------------------|
    D|---------------------------------|-2-------------------------------|
    A|-3---3---3---3---3---3---3---3---|-3-------------------------------|
    E|---------------------------------|---------------------------------|

    ~~~~~

    [[Chords in this song]]
    Em Cmaj7 Am Dm/F# Cmaj7 (add 2)
    e|-0-----|-0-----|-0-----|-1-----|-0-------------|
    B|-0-----|-0-----|-1-----|-3-----|-0-------------|
    G|-0-----|-0-----|-2-----|-2-----|-0-------------|
    D|-2-----|-2-----|-2-----|-0-----|-0-------------|
    A|-2-----|-3-----|-0-----|-0-----|-3-------------|
    E|-0-----|-------|-------|-1-----|---------------|


    LYRICS

    well my heart will sleep tonight
    on its bed
    silk sheets stained in red

    and things never seemed as calm
    as on these waves
    casting off away

    and even these turning leaves
    turn no more
    laid on white carpet floors

    don't worry, silver fire
    put out your flames
    and take in all your blame

    (chorus)
    oh, rest in peace
    sleep without a stir
    and know that you won't be
    needed here for a while

    do i walk the tragic trail
    laced with hope
    the gentle rising slope

    and as the boulder falls
    i'd swear again
    that this would be the end

    so rest in peace
    sleep without a stir
    and know that you won't be
    needed here for a while

    and those times i've called before
    remember them no more
    and know that you won't be
    needed here for a while

Comments (0)Comments (0)

There are no comments.

Add a comment.

Register a new account.
Forgot your password?

Sharing box

Share this page:    

Copy/pasteable HTML: